Now and Forever – Richard Marx (Easy)

5/5 - (3 votes)

Watch Full Video Tutorial: ๐Ÿ‘‡๐Ÿ‘‡๐Ÿ‘‡ https://www.youtube.com/watch?v=KL–HwXt4OE

Resize text-+=
Now and Forever 
By: Richard Marx 
C#m7b5 - x4545x
Cmmaj7 - x35443
 
 
[Intro]
   G                         C/E            G                         C/E
e|------3-----|------------|-----3--------|------3-----|------------|-----3--------|
B|-0----3-----|-0h1-1s3--1-|---------1p0--|-0----3-----|-0h1-1s3--1-|----------1---|
G|---------0--|------------|---0--------0-|---------0--|------------|---0--------0-|
D|---0--------|-0h2-2s4--2-|-2-----2------|---0--------|-0h2-2s4--2-|-2-----2------|
A|------------|------------|--------------|------------|------------|--------------|
E|-3----------|------------|--------------|-3----------|------------|--------------|
 
[Verse]
G     D/F#     Em             Am           G6         Dsus2/F#
  Whenever I'm weary from the battles that rage in my head
G     D/F#          Em              Am     G6         Dsus2/F#
  You make sense of madness when my sanity hangs by a thread
 
[Chorus]
C           B7                Em      D5   C#m7b5            Am7   Dsus4  D       G
  I lose my way but still you seem to understand, now and forever, I will be your man
 
[Verse]
G     D/F#         Em        Am            G6       Dsus2/F#
  Sometimes I just hold you, too caught up in me to see
G     D/F#      Em           Am         G6       Dsus2/F#
  I'm holding a fortune that heaven has given to me
 
[Chorus]
C             B7                Em    D5    C#m7b5          Am7   Dsus4  D       G
  I'll try to show you each and every way I can, now and forever, I will be your man
 
[Bridge]
B7        Em      C           G         D     Em     C         G       D/F#
Now I can rest my worries and always be sure, that I won't be alone anymore
Em       C    G              D              Am7           Cmmaj7
  If I'd only known you were there, all the time, all the time
 
[Guitar Solo]
  G  D/F#  Em  Am  G6  Dsus2/F#  G  D/F#  Em  Am  G6  Dsus2/F#
 
e|---------------------------------------------------------------------------------|
B|---------------------------------------------------------------------------------|
G|----------------------------------------4-5---4-5------5h7p5-4----0----2---------|
D|-5------5h7p5-4---5---7--7s9--9-------------7------------------------------------|
A|---------------------------------------------------------------------------------|
E|---------------------------------------------------------------------------------|
 
e|-------------------3----------2---2h3p2-0---7-----7h8--7h8p7--|
B|--------------------------------------------------------------|
G|-------0-2-4-5-4--------4-2-----------------------------------|
D|-0-2-4--------------------------------------------------------|
A|--------------------------------------------------------------|
E|--------------------------------------------------------------|
 
e|-5--5--7-3---------3-3------3s5------------------------------------|
B|--------------3-3---------3------------8-7h8p7---------------------|
G|-----------------------------------------------9-7s5s4---4s5-------|
D|-------------------------------------------------------7-----------|
A|-------------------------------------------------------------------|
E|-------------------------------------------------------------------|
 
[Chorus]
C           B7            Em      D5        C#m7b5           Am7   Dsus4  D       G
  Until the day the ocean doesn't touch the sand, now and forever, I will be your man
           Am7   Dsus4  D       Am7  Cmmaj7  G  Am7  G
Now and forever, I will be your man
 
 
******************************
 
| h  Hammer-on
| p  Pull-off
| s  Legato slide
 
******************************

If You Want To See The List of All Songs Click Here: All Songs

Similar Posts

Leave a Reply

Your email address will not be published. Required fields are marked *