Bagsakan – Parokya ni Edgar (Tabs)

5/5 - (1 vote)

Watch Full Video Tutorial: πŸ‘‡πŸ‘‡πŸ‘‡ https://www.youtube.com/watch?v=Ck0yNdENMLo

Resize text-+=
Bagsakan 
By: Parokya ni Edgar 

[IntroChorus]
 
Eto dalawang beses tapos ung verse na...
e|------------------------------------------------------|
B|------------------------------------------------------|
G|------------------------------------------------------|  (3x)
D|---------5-----7--6--5------------5-------------------|
A|---5--5-----5---------------5--5-----5--3--3--3-------|
E|------------------------------------------------------|
 
e|------------------------------------------------------|
B|------------------------------------------------------|
G|------------------------------------------------------|
D|---------5-----7--6--5------------5-------------------|
A|---5--5-----5---------------5--5-----5--5--5--5-------|
E|------------------------------------------------------|
 
 
[Verse:1]
 
Eto dalawang beses dn...
e|-------------------------|
B|-------------------------|
G|-------------------------|  (3x)
D|---------5-----7--6--5---|
A|---5--5-----5------------|
E|-------------------------|
 
e|-------------------------|
B|-------------------------|
G|-------------------------|
D|---------5-----5--6--7---|
A|---5--5-----5------------|
E|-------------------------|
 
Then:
e|-------------------------|
B|-------------------------|
G|---------5-----7--6--5---|  (3x)
D|---5--5-----5------------|
A|-------------------------|
E|-------------------------|
 
e|-------------------------|
B|-------------------------|
G|---------5-----5--6--7---|
D|---5--5-----5------------|
A|-------------------------|
E|-------------------------|
 
 
[Refrain:1]
 
Eto apat n beses...pakinggan niyo na lang ung strumming...
e|--------------------------------|
B|--------------------------------|
G|--------------------------------|  (4x)
D|------5---8---7---10------------|
A|------5---8---7---10------------|
E|------3---6---5---8-------------|
 
 
[Chorus:1]
 
e|------------------------------------------------------|
B|------------------------------------------------------|
G|------------------------------------------------------|  (3x)
D|---------5-----7--6--5------------5-------------------|
A|---5--5-----5---------------5--5-----5--3--3--3-------|
E|------------------------------------------------------|
 
 
e|------------------------------------------------------|
B|------------------------------------------------------|
G|------------------------------------------------------|
D|---------5-----7--6--5------------5-------------------|
A|---5--5-----5---------------5--5-----5--5--5--5-------|
E|------------------------------------------------------|
 
[Verse:2]
[Refrain:2]
 
 
[Chorus:2]
 
e|------------------------------------------------------|
B|------------------------------------------------------|
G|------------------------------------------------------|  (2x)
D|---------5-----7--6--5------------5-------------------|
A|---5--5-----5---------------5--5-----5--3--3--3-------|
E|------------------------------------------------------|
 
e|------------------------------------------------------|
B|------------------------------------------------------|
G|---------5-----7--6--5--------------------------------|  (2x)
D|---5--5-----5-----------5(Pause)----------------------|
A|------------------------------------------------------|
E|------------------------------------------------------|
 
e|------------------------------------------------------|
B|------------------------------------------------------|
G|------------------------------------------------------|
D|---------5-----7--6--5------------5-------------------|
A|---5--5-----5---------------5--5-----5--3--3--3-------|
E|------------------------------------------------------|
 
e|------------------------------------------------------|
B|------------------------------------------------------|
G|------------------------------------------------------|
D|---------5-----7--6--5------------5-------------------|
A|---5--5-----5---------------5--5-----5--5--5--5-------|
E|------------------------------------------------------|
 
 
[Verse:3]
 
Then:
e|--------------------------------|
B|--------------------------------|
G|--------------------------------|  (7x)
D|------5---8---7---10------------|
A|------5---8---7---10------------|
E|------3---6---5---8-------------|
 
e|--------------------------------|
B|--------------------------------|
G|--------------------------------|  (Pause)
D|------5---8---7---10--5---------|
A|------5---8---7---10--5---------|
E|------3---6---5---8---3---------|
 
 
Then:
      G           G
I'm Pedro basura man
    C                  G
I live in the garbage can
   C
I went to my auntie
     G
And punit her panty
      D             G-D-G
I'm Pedro basura man

If You Want To See The List of All Songs Click Here: All Songs

Similar Posts

Leave a Reply

Your email address will not be published. Required fields are marked *